0
SECTION
2
HEADER
9
$INSUNITS
70
4
9
$ACADVER
1
AC1014
9
$HANDSEED
5
FFFF
0
ENDSEC
0
SECTION
2
TABLES
0
TABLE
2
VPORT
5
8
100
AcDbSymbolTable
0
ENDTAB
0
TABLE
2
LTYPE
5
5
100
AcDbSymbolTable
0
LTYPE
5
14
100
AcDbSymbolTableRecord
100
AcDbLinetypeTableRecord
2
BYBLOCK
70
0
0
LTYPE
5
15
100
AcDbSymbolTableRecord
100
AcDbLinetypeTableRecord
2
BYLAYER
70
0
0
ENDTAB
0
TABLE
2
LAYER
5
2
100
AcDbSymbolTable
70
2
0
LAYER
5
50
100
AcDbSymbolTableRecord
100
AcDbLayerTableRecord
2
0
70
0
6
CONTINUOUS
0
ENDTAB
0
TABLE
2
STYLE
5
3
100
AcDbSymbolTable
70
1
0
STYLE
5
11
100
AcDbSymbolTableRecord
100
AcDbTextStyleTableRecord
2
STANDARD
70
0
0
ENDTAB
0
TABLE
2
VIEW
5
6
100
AcDbSymbolTable
70
0
0
ENDTAB
0
TABLE
2
UCS
5
7
100
AcDbSymbolTable
70
0
0
ENDTAB
0
TABLE
2
APPID
5
9
100
AcDbSymbolTable
70
2
0
APPID
5
12
100
AcDbSymbolTableRecord
100
AcDbRegAppTableRecord
2
ACAD
70
0
0
ENDTAB
0
TABLE
2
DIMSTYLE
5
A
100
AcDbSymbolTable
70
1
0
ENDTAB
0
TABLE
2
BLOCK_RECORD
5
1
100
AcDbSymbolTable
70
1
0
BLOCK_RECORD
5
1F
100
AcDbSymbolTableRecord
100
AcDbBlockTableRecord
2
*MODEL_SPACE
0
BLOCK_RECORD
5
1B
100
AcDbSymbolTableRecord
100
AcDbBlockTableRecord
2
*PAPER_SPACE
0
ENDTAB
0
ENDSEC
0
SECTION
2
BLOCKS
0
BLOCK
5
20
100
AcDbEntity
100
AcDbBlockBegin
2
*MODEL_SPACE
0
ENDBLK
5
21
100
AcDbEntity
100
AcDbBlockEnd
0
BLOCK
5
1C
100
AcDbEntity
100
AcDbBlockBegin
2
*PAPER_SPACE
0
ENDBLK
5
1D
100
AcDbEntity
100
AcDbBlockEnd
0
ENDSEC
0
SECTION
2
ENTITIES
0
LWPOLYLINE
5
100
100
AcDbEntity
8
0
100
AcDbPolyline
90
8
70
1
43
0.0
10
25.500000000000004
20
2
10
25.500000000000004
20
23.5
42
0.41421356237309509
10
23.5
20
25.500000000000004
10
2.0000000000000018
20
25.500000000000004
42
0.41421356237309526
10
0
20
23.5
10
0
20
2.0000000000000018
42
0.41421356237309526
10
2.0000000000000004
20
0
10
23.5
20
0
42
0.41421356237309509
0
CIRCLE
5
101
100
AcDbEntity
8
0
100
AcDbCircle
10
22.352000000000004
20
8.7780000000000022
30
0
40
0.25
210
0
220
-0
230
1
0
CIRCLE
5
102
100
AcDbEntity
8
0
100
AcDbCircle
10
21.125000000000004
20
5.5
30
0
40
0.29999999999999999
210
0
220
-0
230
1
0
CIRCLE
5
103
100
AcDbEntity
8
0
100
AcDbCircle
10
22.375000000000004
20
5.5
30
0
40
0.29999999999999999
210
0
220
-0
230
1
0
CIRCLE
5
104
100
AcDbEntity
8
0
100
AcDbCircle
10
19.875
20
5.5
30
0
40
0.29999999999999999
210
0
220
-0
230
1
0
CIRCLE
5
105
100
AcDbEntity
8
0
100
AcDbCircle
10
1.7500000000000002
20
5.5
30
0
40
0.29999999999999999
210
0
220
-0
230
1
0
CIRCLE
5
106
100
AcDbEntity
8
0
100
AcDbCircle
10
3.0000000000000004
20
5.5
30
0
40
0.29999999999999999
210
0
220
-0
230
1
0
CIRCLE
5
107
100
AcDbEntity
8
0
100
AcDbCircle
10
4.25
20
5.5
30
0
40
0.29999999999999999
210
0
220
-0
230
1
0
CIRCLE
5
108
100
AcDbEntity
8
0
100
AcDbCircle
10
5.5
20
5.5
30
0
40
0.29999999999999999
210
0
220
-0
230
1
0
CIRCLE
5
109
100
AcDbEntity
8
0
100
AcDbCircle
10
2
20
2
30
0
40
1.1000000000000001
210
0
220
-0
230
1
0
CIRCLE
5
110
100
AcDbEntity
8
0
100
AcDbCircle
10
9.537700000000001
20
1.9558
30
0
40
0.49530000000000007
210
0
220
-0
230
1
0
CIRCLE
5
111
100
AcDbEntity
8
0
100
AcDbCircle
10
4.4577
20
2.9718
30
0
40
0.49530000000000007
210
0
220
-0
230
1
0
CIRCLE
5
112
100
AcDbEntity
8
0
100
AcDbCircle
10
23.5
20
2
30
0
40
1.1000000000000001
210
0
220
-0
230
1
0
CIRCLE
5
113
100
AcDbEntity
8
0
100
AcDbCircle
10
24.384
20
8.7780000000000022
30
0
40
0.25
210
0
220
-0
230
1
0
CIRCLE
5
114
100
AcDbEntity
8
0
100
AcDbCircle
10
20.32
20
8.7780000000000022
30
0
40
0.25
210
0
220
-0
230
1
0
CIRCLE
5
115
100
AcDbEntity
8
0
100
AcDbCircle
10
22.375000000000004
20
19
30
0
40
0.29999999999999999
210
0
220
-0
230
1
0
CIRCLE
5
116
100
AcDbEntity
8
0
100
AcDbCircle
10
19.875
20
19
30
0
40
0.29999999999999999
210
0
220
-0
230
1
0
CIRCLE
5
117
100
AcDbEntity
8
0
100
AcDbCircle
10
21.125000000000004
20
19
30
0
40
0.29999999999999999
210
0
220
-0
230
1
0
CIRCLE
5
118
100
AcDbEntity
8
0
100
AcDbCircle
10
3.125
20
19.323799999999999
30
0
40
0.29999999999999999
210
0
220
-0
230
1
0
CIRCLE
5
119
100
AcDbEntity
8
0
100
AcDbCircle
10
5.625
20
19.323799999999999
30
0
40
0.29999999999999999
210
0
220
-0
230
1
0
CIRCLE
5
120
100
AcDbEntity
8
0
100
AcDbCircle
10
4.375
20
19.323799999999999
30
0
40
0.29999999999999999
210
0
220
-0
230
1
0
CIRCLE
5
121
100
AcDbEntity
8
0
100
AcDbCircle
10
21.125000000000004
20
12.25
30
0
40
0.29999999999999999
210
0
220
-0
230
1
0
CIRCLE
5
122
100
AcDbEntity
8
0
100
AcDbCircle
10
19.875
20
12.25
30
0
40
0.29999999999999999
210
0
220
-0
230
1
0
CIRCLE
5
123
100
AcDbEntity
8
0
100
AcDbCircle
10
22.375000000000004
20
12.25
30
0
40
0.29999999999999999
210
0
220
-0
230
1
0
CIRCLE
5
124
100
AcDbEntity
8
0
100
AcDbCircle
10
1.875
20
19.323799999999999
30
0
40
0.29999999999999999
210
0
220
-0
230
1
0
CIRCLE
5
125
100
AcDbEntity
8
0
100
AcDbCircle
10
4.4577
20
0.93980000000000008
30
0
40
0.49530000000000007
210
0
220
-0
230
1
0
CIRCLE
5
126
100
AcDbEntity
8
0
100
AcDbCircle
10
23.625000000000004
20
19
30
0
40
0.29999999999999999
210
0
220
-0
230
1
0
CIRCLE
5
127
100
AcDbEntity
8
0
100
AcDbCircle
10
23.625000000000004
20
12.25
30
0
40
0.29999999999999999
210
0
220
-0
230
1
0
CIRCLE
5
128
100
AcDbEntity
8
0
100
AcDbCircle
10
23.625000000000004
20
5.5
30
0
40
0.29999999999999999
210
0
220
-0
230
1
0
CIRCLE
5
129
100
AcDbEntity
8
0
100
AcDbCircle
10
23.5
20
23.5
30
0
40
1.1000000000000001
210
0
220
-0
230
1
0
CIRCLE
5
130
100
AcDbEntity
8
0
100
AcDbCircle
10
2
20
23.5
30
0
40
1.1000000000000001
210
0
220
-0
230
1
0
LWPOLYLINE
5
131
100
AcDbEntity
8
0
100
AcDbPolyline
90
8
70
1
43
0.0
10
1.26
20
20.148741065587998
10
1.2599999999999998
20
18.498858934411999
10
1.4943308570875375
20
18.32379999999938
10
2.1956691429120001
20
18.323799999999999
10
2.4300000000000392
20
18.498858934411945
10
2.4300000000000002
20
20.148741065587998
10
2.1956691429123221
20
20.323800000000428
10
1.4943308570879998
20
20.323799999999999
0
LWPOLYLINE
5
132
100
AcDbEntity
8
0
100
AcDbPolyline
90
8
70
1
43
0.0
10
1.6449999999999998
20
19.1738
10
1.6449999999999976
20
19.473799999999997
42
-0.41421356237311457
10
1.6949999999999998
20
19.523800000000001
10
1.9950000000000001
20
19.523799999999998
42
-0.41421356237311457
10
2.0449999999999999
20
19.473800000000001
10
2.0449999999999999
20
19.1738
42
-0.41421356237312756
10
1.9950000000000001
20
19.123800000000003
10
1.6949999999999998
20
19.123800000000003
42
-0.41421356237312756
0
LWPOLYLINE
5
133
100
AcDbEntity
8
0
100
AcDbPolyline
90
8
70
1
43
0.0
10
2.5300000000000002
20
20.148741065587998
10
2.5300000000000002
20
18.498858934411999
10
2.7643308570875371
20
18.32379999999938
10
3.4656691429120001
20
18.323799999999999
10
3.7000000000000393
20
18.498858934411945
10
3.7000000000000002
20
20.148741065587998
10
3.4656691429123225
20
20.323800000000428
10
2.7643308570879999
20
20.323799999999999
0
LWPOLYLINE
5
134
100
AcDbEntity
8
0
100
AcDbPolyline
90
8
70
1
43
0.0
10
2.915
20
19.1738
10
2.9149999999999983
20
19.473800000000001
42
-0.41421356237311135
10
2.9649999999999999
20
19.523800000000001
10
3.2650000000000001
20
19.523799999999998
42
-0.41421356237311135
10
3.3150000000000004
20
19.473800000000001
10
3.3149999999999995
20
19.1738
42
-0.41421356237312429
10
3.2650000000000001
20
19.123800000000003
10
2.9649999999999999
20
19.123800000000003
42
-0.41421356237312429
0
LWPOLYLINE
5
135
100
AcDbEntity
8
0
100
AcDbPolyline
90
8
70
1
43
0.0
10
3.7999999999999998
20
20.148741065587998
10
3.7999999999999998
20
18.498858934411999
10
4.0343308570875367
20
18.32379999999938
10
4.7356691429120001
20
18.323799999999999
10
4.9699999999998887
20
18.498858934412148
10
4.9699999999999998
20
20.148741065587998
10
4.7356691429121716
20
20.323800000000229
10
4.0343308570879994
20
20.323799999999999
0
LWPOLYLINE
5
136
100
AcDbEntity
8
0
100
AcDbPolyline
90
8
70
1
43
0.0
10
4.1849999999999996
20
19.1738
10
4.1850000000000005
20
19.473800000000001
42
-0.41421356237311135
10
4.2349999999999994
20
19.523799999999998
10
4.5350000000000001
20
19.523799999999998
42
-0.41421356237312429
10
4.585
20
19.473799999999997
10
4.585
20
19.1738
42
-0.41421356237311135
10
4.5350000000000001
20
19.123800000000003
10
4.2349999999999994
20
19.123800000000003
42
-0.41421356237312429
0
LWPOLYLINE
5
137
100
AcDbEntity
8
0
100
AcDbPolyline
90
8
70
1
43
0.0
10
5.0700000000000003
20
20.148741065587998
10
5.0700000000000003
20
18.498858934411999
10
5.3043308570875372
20
18.32379999999938
10
6.0056691429119997
20
18.323799999999999
10
6.2400000000000393
20
18.498858934411945
10
6.2400000000000002
20
20.148741065587998
10
6.005669142912323
20
20.323800000000428
10
5.3043308570879999
20
20.323799999999999
0
LWPOLYLINE
5
138
100
AcDbEntity
8
0
100
AcDbPolyline
90
8
70
1
43
0.0
10
5.4550000000000001
20
19.1738
10
5.4550000000000018
20
19.473799999999997
42
-0.41421356237312756
10
5.5049999999999999
20
19.523799999999998
10
5.8049999999999997
20
19.523800000000001
42
-0.41421356237314055
10
5.8550000000000004
20
19.473799999999997
10
5.8549999999999978
20
19.1738
42
-0.41421356237312756
10
5.8049999999999997
20
19.123800000000003
10
5.5049999999999999
20
19.123799999999999
42
-0.41421356237314055
0
LWPOLYLINE
5
139
100
AcDbEntity
8
0
100
AcDbPolyline
90
8
70
1
43
0.0
10
1.1349999999999998
20
6.3249410655880016
10
1.1349999999999998
20
4.675058934412001
10
1.3693308570875373
20
4.4999999999993809
10
2.0706691429120001
20
4.5000000000000009
10
2.3050000000000392
20
4.6750589344119478
10
2.3050000000000002
20
6.3249410655880016
10
2.0706691429123221
20
6.5000000000004317
10
1.3693308570879998
20
6.5000000000000018
0
LWPOLYLINE
5
140
100
AcDbEntity
8
0
100
AcDbPolyline
90
8
70
1
43
0.0
10
1.5199999999999996
20
5.3500000000000014
10
1.5200000000000005
20
5.6500000000000021
42
-0.4142135623730967
10
1.5699999999999998
20
5.7000000000000011
10
1.8700000000000001
20
5.700000000000002
42
-0.41421356237310319
10
1.9199999999999999
20
5.6500000000000004
10
1.9199999999999993
20
5.3500000000000005
42
-0.41421356237310319
10
1.8700000000000001
20
5.3000000000000007
10
1.5699999999999998
20
5.2999999999999989
42
-0.41421356237310963
0
LWPOLYLINE
5
141
100
AcDbEntity
8
0
100
AcDbPolyline
90
8
70
1
43
0.0
10
2.4049999999999998
20
6.3249410655880016
10
2.4049999999999994
20
4.675058934412001
10
2.6393308570875367
20
4.4999999999993809
10
3.3406691429120001
20
4.5000000000000009
10
3.5750000000000397
20
4.6750589344119478
10
3.5750000000000002
20
6.3249410655880016
10
3.3406691429123225
20
6.5000000000004317
10
2.6393308570879999
20
6.5
0
LWPOLYLINE
5
142
100
AcDbEntity
8
0
100
AcDbPolyline
90
8
70
1
43
0.0
10
2.7899999999999996
20
5.3500000000000005
10
2.79
20
5.6499999999999995
42
-0.4142135623731048
10
2.8399999999999999
20
5.7000000000000011
10
3.1400000000000001
20
5.7000000000000011
42
-0.4142135623731048
10
3.1899999999999999
20
5.6500000000000004
10
3.1899999999999995
20
5.3500000000000014
42
-0.4142135623731048
10
3.1400000000000001
20
5.3000000000000007
10
2.8399999999999999
20
5.3000000000000007
42
-0.4142135623731048
0
LWPOLYLINE
5
143
100
AcDbEntity
8
0
100
AcDbPolyline
90
8
70
1
43
0.0
10
3.6749999999999998
20
6.3249410655880016
10
3.6749999999999998
20
4.675058934412001
10
3.9093308570875367
20
4.4999999999993809
10
4.6106691429120001
20
4.5000000000000009
10
4.8449999999998887
20
4.6750589344121494
10
4.8449999999999998
20
6.3249410655879998
10
4.6106691429121716
20
6.5000000000002309
10
3.9093308570879999
20
6.5
0
LWPOLYLINE
5
144
100
AcDbEntity
8
0
100
AcDbPolyline
90
8
70
1
43
0.0
10
4.0599999999999996
20
5.3500000000000005
10
4.0600000000000005
20
5.6499999999999995
42
-0.4142135623731048
10
4.1099999999999994
20
5.7000000000000011
10
4.4100000000000001
20
5.7000000000000011
42
-0.4142135623731048
10
4.46
20
5.6500000000000004
10
4.4599999999999991
20
5.3500000000000014
42
-0.4142135623731048
10
4.4100000000000001
20
5.3000000000000007
10
4.1099999999999994
20
5.3000000000000007
42
-0.4142135623731048
0
LWPOLYLINE
5
145
100
AcDbEntity
8
0
100
AcDbPolyline
90
8
70
1
43
0.0
10
4.9450000000000003
20
6.3249410655879998
10
4.9450000000000003
20
4.6750589344120002
10
5.1793308570875372
20
4.4999999999993809
10
5.8806691429120006
20
4.5000000000000009
10
6.1150000000000393
20
4.6750589344119478
10
6.1150000000000002
20
6.3249410655879998
10
5.880669142912323
20
6.5000000000004317
10
5.1793308570880008
20
6.5
0
LWPOLYLINE
5
146
100
AcDbEntity
8
0
100
AcDbPolyline
90
8
70
1
43
0.0
10
5.3300000000000001
20
5.3500000000000005
10
5.3300000000000018
20
5.6500000000000004
42
-0.41421356237310153
10
5.3800000000000008
20
5.7000000000000011
10
5.6800000000000006
20
5.700000000000002
42
-0.41421356237310153
10
5.7300000000000004
20
5.6500000000000004
10
5.7299999999999995
20
5.3500000000000005
42
-0.41421356237310153
10
5.6800000000000006
20
5.3000000000000007
10
5.3800000000000008
20
5.2999999999999989
42
-0.41421356237310153
0
LWPOLYLINE
5
147
100
AcDbEntity
8
0
100
AcDbPolyline
90
8
70
1
43
0.0
10
19.260000000000002
20
6.3249410655880016
10
19.260000000000002
20
4.675058934412001
10
19.494330857087537
20
4.4999999999993809
10
20.195669142912003
20
4.5000000000000009
10
20.430000000000042
20
4.6750589344119478
10
20.43
20
6.3249410655880016
10
20.195669142912323
20
6.5000000000004317
10
19.494330857088002
20
6.5000000000000018
0
LWPOLYLINE
5
148
100
AcDbEntity
8
0
100
AcDbPolyline
90
8
70
1
43
0.0
10
19.645000000000003
20
5.3500000000000014
10
19.645000000000003
20
5.6500000000000021
42
-0.41421356237314055
10
19.695
20
5.7000000000000011
10
19.994999999999997
20
5.7000000000000011
42
-0.41421356237308854
10
20.045000000000002
20
5.6500000000000004
10
20.045000000000002
20
5.3500000000000005
42
-0.41421356237308854
10
19.995000000000001
20
5.3000000000000007
10
19.695
20
5.3000000000000016
42
-0.41421356237315354
0
LWPOLYLINE
5
149
100
AcDbEntity
8
0
100
AcDbPolyline
90
8
70
1
43
0.0
10
20.530000000000001
20
6.3249410655880016
10
20.530000000000001
20
4.675058934412001
10
20.76433085708754
20
4.4999999999993809
10
21.465669142911999
20
4.5000000000000009
10
21.700000000000045
20
4.6750589344119478
10
21.699999999999999
20
6.3249410655880016
10
21.465669142912319
20
6.5000000000004317
10
20.764330857087998
20
6.5
0
LWPOLYLINE
5
150
100
AcDbEntity
8
0
100
AcDbPolyline
90
8
70
1
43
0.0
10
20.914999999999999
20
5.3500000000000005
10
20.914999999999999
20
5.6500000000000004
42
-0.4142135623730625
10
20.964999999999996
20
5.7000000000000011
10
21.265000000000001
20
5.7000000000000028
42
-0.4142135623730625
10
21.314999999999998
20
5.6500000000000004
10
21.314999999999998
20
5.3500000000000005
42
-0.4142135623730625
10
21.265000000000001
20
5.3000000000000007
10
20.964999999999996
20
5.299999999999998
42
-0.4142135623730625
0
LWPOLYLINE
5
151
100
AcDbEntity
8
0
100
AcDbPolyline
90
8
70
1
43
0.0
10
21.800000000000001
20
6.3249410655880016
10
21.800000000000001
20
4.675058934412001
10
22.034330857087539
20
4.4999999999993809
10
22.735669142911998
20
4.5000000000000009
10
22.969999999999892
20
4.6750589344121494
10
22.970000000000002
20
6.3249410655879998
10
22.735669142912172
20
6.5000000000002309
10
22.034330857088001
20
6.5
0
LWPOLYLINE
5
152
100
AcDbEntity
8
0
100
AcDbPolyline
90
8
70
1
43
0.0
10
22.185000000000002
20
5.3500000000000005
10
22.184999999999995
20
5.6500000000000004
42
-0.41421356237314055
10
22.234999999999999
20
5.7000000000000011
10
22.534999999999997
20
5.7000000000000028
42
-0.4142135623730625
10
22.584999999999997
20
5.6500000000000004
10
22.584999999999997
20
5.3500000000000005
42
-0.4142135623730625
10
22.534999999999997
20
5.3000000000000007
10
22.234999999999999
20
5.3000000000000025
42
-0.41421356237314055
0
LWPOLYLINE
5
153
100
AcDbEntity
8
0
100
AcDbPolyline
90
8
70
1
43
0.0
10
23.07
20
6.3249410655879998
10
23.07
20
4.6750589344120002
10
23.304330857087542
20
4.4999999999993809
10
24.005669142912001
20
4.5000000000000009
10
24.240000000000045
20
4.6750589344119478
10
24.239999999999998
20
6.3249410655879998
10
24.005669142912321
20
6.5000000000004317
10
23.304330857088004
20
6.5
0
LWPOLYLINE
5
154
100
AcDbEntity
8
0
100
AcDbPolyline
90
8
70
1
43
0.0
10
23.454999999999998
20
5.3500000000000005
10
23.455000000000005
20
5.6500000000000004
42
-0.4142135623730625
10
23.505000000000003
20
5.7000000000000011
10
23.805
20
5.6999999999999984
42
-0.41421356237314055
10
23.855
20
5.6500000000000004
10
23.855000000000004
20
5.3500000000000005
42
-0.41421356237314055
10
23.805
20
5.3000000000000007
10
23.505000000000003
20
5.2999999999999936
42
-0.4142135623730625
0
LWPOLYLINE
5
155
100
AcDbEntity
8
0
100
AcDbPolyline
90
8
70
1
43
0.0
10
23.07
20
13.074941065588002
10
23.07
20
11.425058934412002
10
23.304330857087542
20
11.24999999999938
10
24.005669142912001
20
11.25
10
24.240000000000045
20
11.425058934411947
10
24.239999999999998
20
13.074941065588
10
24.005669142912321
20
13.25000000000043
10
23.304330857088004
20
13.250000000000002
0
LWPOLYLINE
5
156
100
AcDbEntity
8
0
100
AcDbPolyline
90
8
70
1
43
0.0
10
23.454999999999998
20
12.100000000000001
10
23.455000000000005
20
12.400000000000002
42
-0.41421356237304296
10
23.505000000000003
20
12.449999999999999
10
23.804999999999996
20
12.449999999999996
42
-0.414213562373134
10
23.855
20
12.4
10
23.855000000000004
20
12.1
42
-0.41421356237312101
10
23.805
20
12.050000000000002
10
23.505000000000003
20
12.049999999999997
42
-0.41421356237305601
0
LWPOLYLINE
5
157
100
AcDbEntity
8
0
100
AcDbPolyline
90
8
70
1
43
0.0
10
21.800000000000001
20
13.074941065588002
10
21.800000000000001
20
11.425058934412002
10
22.034330857087539
20
11.249999999999382
10
22.735669142911998
20
11.25
10
22.969999999999892
20
11.425058934412149
10
22.970000000000002
20
13.074941065588
10
22.735669142912172
20
13.250000000000233
10
22.034330857088001
20
13.250000000000002
0
LWPOLYLINE
5
158
100
AcDbEntity
8
0
100
AcDbPolyline
90
8
70
1
43
0.0
10
22.185000000000002
20
12.100000000000001
10
22.184999999999995
20
12.400000000000002
42
-0.41421356237312101
10
22.234999999999999
20
12.449999999999999
10
22.534999999999997
20
12.450000000000001
42
-0.41421356237305601
10
22.584999999999997
20
12.4
10
22.584999999999997
20
12.1
42
-0.41421356237304296
10
22.534999999999997
20
12.050000000000002
10
22.235000000000007
20
12.050000000000004
42
-0.414213562373134
0
LWPOLYLINE
5
159
100
AcDbEntity
8
0
100
AcDbPolyline
90
8
70
1
43
0.0
10
20.530000000000001
20
13.074941065588002
10
20.530000000000001
20
11.425058934412002
10
20.76433085708754
20
11.24999999999938
10
21.465669142911999
20
11.25
10
21.700000000000045
20
11.425058934411947
10
21.699999999999999
20
13.074941065588
10
21.465669142912319
20
13.250000000000433
10
20.764330857087998
20
13.250000000000002
0
LWPOLYLINE
5
160
100
AcDbEntity
8
0
100
AcDbPolyline
90
8
70
1
43
0.0
10
20.914999999999999
20
12.100000000000001
10
20.914999999999999
20
12.400000000000002
42
-0.41421356237305601
10
20.964999999999996
20
12.450000000000001
10
21.265000000000001
20
12.450000000000003
42
-0.41421356237305601
10
21.314999999999998
20
12.400000000000002
10
21.314999999999998
20
12.100000000000001
42
-0.41421356237305601
10
21.265000000000001
20
12.050000000000002
10
20.964999999999996
20
12.050000000000001
42
-0.41421356237305601
0
LWPOLYLINE
5
161
100
AcDbEntity
8
0
100
AcDbPolyline
90
8
70
1
43
0.0
10
19.260000000000002
20
13.074941065588002
10
19.260000000000002
20
11.425058934412002
10
19.494330857087537
20
11.24999999999938
10
20.195669142912003
20
11.25
10
20.430000000000042
20
11.425058934411947
10
20.43
20
13.074941065588
10
20.195669142912323
20
13.250000000000433
10
19.494330857088002
20
13.250000000000002
0
LWPOLYLINE
5
162
100
AcDbEntity
8
0
100
AcDbPolyline
90
8
70
1
43
0.0
10
19.645000000000003
20
12.100000000000001
10
19.645000000000003
20
12.400000000000002
42
-0.41421356237309509
10
19.695
20
12.450000000000001
10
19.995000000000001
20
12.450000000000001
42
-0.414213562373134
10
20.045000000000002
20
12.400000000000002
10
20.045000000000002
20
12.100000000000001
42
-0.41421356237312101
10
19.995000000000001
20
12.050000000000002
10
19.695
20
12.050000000000002
42
-0.41421356237309509
0
LWPOLYLINE
5
163
100
AcDbEntity
8
0
100
AcDbPolyline
90
8
70
1
43
0.0
10
19.260000000000002
20
19.824941065588003
10
19.260000000000002
20
18.175058934412004
10
19.494330857087537
20
17.999999999999382
10
20.195669142912003
20
18
10
20.430000000000042
20
18.175058934411947
10
20.43
20
19.824941065588
10
20.195669142912323
20
20.000000000000433
10
19.494330857088002
20
20
0
LWPOLYLINE
5
164
100
AcDbEntity
8
0
100
AcDbPolyline
90
8
70
1
43
0.0
10
19.645000000000003
20
18.850000000000001
10
19.645000000000003
20
19.150000000000002
42
-0.41421356237309509
10
19.695
20
19.200000000000003
10
19.995000000000001
20
19.199999999999999
42
-0.41421356237312101
10
20.045000000000002
20
19.150000000000002
10
20.045000000000002
20
18.850000000000001
42
-0.414213562373134
10
19.995000000000001
20
18.800000000000004
10
19.695
20
18.800000000000004
42
-0.41421356237309509
0
LWPOLYLINE
5
165
100
AcDbEntity
8
0
100
AcDbPolyline
90
8
70
1
43
0.0
10
20.530000000000001
20
19.824941065588003
10
20.530000000000001
20
18.175058934412004
10
20.76433085708754
20
17.999999999999382
10
21.465669142911999
20
18
10
21.700000000000045
20
18.175058934411947
10
21.699999999999999
20
19.824941065588
10
21.465669142912319
20
20.00000000000043
10
20.764330857087998
20
20
0
LWPOLYLINE
5
166
100
AcDbEntity
8
0
100
AcDbPolyline
90
8
70
1
43
0.0
10
20.914999999999999
20
18.850000000000001
10
20.914999999999999
20
19.150000000000002
42
-0.41421356237305601
10
20.964999999999996
20
19.200000000000003
10
21.265000000000001
20
19.200000000000003
42
-0.41421356237305601
10
21.314999999999998
20
19.150000000000002
10
21.314999999999998
20
18.850000000000001
42
-0.41421356237305601
10
21.265000000000001
20
18.800000000000004
10
20.964999999999996
20
18.800000000000001
42
-0.41421356237305601
0
LWPOLYLINE
5
167
100
AcDbEntity
8
0
100
AcDbPolyline
90
8
70
1
43
0.0
10
21.800000000000001
20
19.824941065588003
10
21.800000000000001
20
18.175058934412004
10
22.034330857087539
20
17.999999999999382
10
22.735669142911998
20
18
10
22.969999999999892
20
18.175058934412149
10
22.970000000000002
20
19.824941065588
10
22.735669142912172
20
20.000000000000231
10
22.034330857088001
20
20
0
LWPOLYLINE
5
168
100
AcDbEntity
8
0
100
AcDbPolyline
90
8
70
1
43
0.0
10
22.185000000000002
20
18.850000000000001
10
22.184999999999995
20
19.150000000000002
42
-0.41421356237312101
10
22.234999999999999
20
19.199999999999999
10
22.534999999999997
20
19.200000000000003
42
-0.41421356237305601
10
22.584999999999997
20
19.149999999999999
10
22.584999999999997
20
18.850000000000001
42
-0.41421356237304296
10
22.534999999999997
20
18.800000000000004
10
22.235000000000007
20
18.800000000000004
42
-0.414213562373134
0
LWPOLYLINE
5
169
100
AcDbEntity
8
0
100
AcDbPolyline
90
8
70
1
43
0.0
10
23.07
20
19.824941065588003
10
23.07
20
18.175058934412004
10
23.304330857087542
20
17.999999999999382
10
24.005669142912001
20
18
10
24.240000000000045
20
18.175058934411947
10
24.239999999999998
20
19.824941065588
10
24.005669142912321
20
20.00000000000043
10
23.304330857088004
20
20
0
LWPOLYLINE
5
170
100
AcDbEntity
8
0
100
AcDbPolyline
90
8
70
1
43
0.0
10
23.454999999999998
20
18.850000000000001
10
23.455000000000005
20
19.150000000000002
42
-0.41421356237304296
10
23.505000000000003
20
19.199999999999999
10
23.804999999999996
20
19.199999999999996
42
-0.414213562373134
10
23.855
20
19.149999999999999
10
23.855000000000004
20
18.850000000000001
42
-0.41421356237312101
10
23.805
20
18.800000000000004
10
23.505000000000003
20
18.799999999999997
42
-0.41421356237305601
0
ENDSEC
0
SECTION
2
OBJECTS
0
DICTIONARY
5
C
100
AcDbDictionary
3
ACAD_GROUP
350
D
3
ACAD_MLINESTYLE
350
17
0
DICTIONARY
5
D
100
AcDbDictionary
0
DICTIONARY
5
1A
330
C
100
AcDbDictionary
0
DICTIONARY
5
17
100
AcDbDictionary
0
ENDSEC
0
EOF
